  0
SECTION
  2
HEADER
  9
$ACADVER
  1
AC1015
  9
$ACADMAINTVER
 70
     6
  9
$DWGCODEPAGE
  3
ANSI_1254
  9
$INSBASE
 10
0.0
 20
0.0
 30
0.0
  9
$EXTMIN
 10
0.0
 20
0.0
 30
0.0
  9
$EXTMAX
 10
279.4
 20
215.9
 30
0.0
  9
$LIMMIN
 10
0.0
 20
0.0
  9
$LIMMAX
 10
279.4
 20
215.9
  9
$ORTHOMODE
 70
     0
  9
$REGENMODE
 70
     1
  9
$FILLMODE
 70
     1
  9
$QTEXTMODE
 70
     0
  9
$MIRRTEXT
 70
     1
  9
$LTSCALE
 40
1.0
  9
$ATTMODE
 70
     1
  9
$TEXTSIZE
 40
3.5
  9
$TRACEWID
 40
1.0
  9
$TEXTSTYLE
  7
Standard
  9
$CLAYER
  8
0
  9
$CELTYPE
  6
ByLayer
  9
$CECOLOR
 62
   256
  9
$CELTSCALE
 40
1.0
  9
$DISPSILH
 70
     0
  9
$DIMSCALE
 40
1.0
  9
$DIMASZ
 40
3.5
  9
$DIMEXO
 40
1.0
  9
$DIMDLI
 40
3.75
  9
$DIMRND
 40
0.0
  9
$DIMDLE
 40
0.0
  9
$DIMEXE
 40
1.0
  9
$DIMTP
 40
0.0
  9
$DIMTM
 40
0.0
  9
$DIMTXT
 40
3.5
  9
$DIMCEN
 40
2.5
  9
$DIMTSZ
 40
0.0
  9
$DIMTOL
 70
     0
  9
$DIMLIM
 70
     0
  9
$DIMTIH
 70
     1
  9
$DIMTOH
 70
     1
  9
$DIMSE1
 70
     0
  9
$DIMSE2
 70
     0
  9
$DIMTAD
 70
     1
  9
$DIMZIN
 70
     0
  9
$DIMBLK
  1

  9
$DIMASO
 70
     1
  9
$DIMSHO
 70
     1
  9
$DIMPOST
  1

  9
$DIMAPOST
  1

  9
$DIMALT
 70
     0
  9
$DIMALTD
 70
     3
  9
$DIMALTF
 40
0.0393700787
  9
$DIMLFAC
 40
1.0
  9
$DIMTOFL
 70
     1
  9
$DIMTVP
 40
0.0
  9
$DIMTIX
 70
     0
  9
$DIMSOXD
 70
     0
  9
$DIMSAH
 70
     0
  9
$DIMBLK1
  1

  9
$DIMBLK2
  1

  9
$DIMSTYLE
  2
ISO-25
  9
$DIMCLRD
 70
     0
  9
$DIMCLRE
 70
     0
  9
$DIMCLRT
 70
     0
  9
$DIMTFAC
 40
1.0
  9
$DIMGAP
 40
1.524
  9
$DIMJUST
 70
     0
  9
$DIMSD1
 70
     0
  9
$DIMSD2
 70
     0
  9
$DIMTOLJ
 70
     0
  9
$DIMTZIN
 70
     0
  9
$DIMALTZ
 70
     0
  9
$DIMALTTZ
 70
     0
  9
$DIMUPT
 70
     0
  9
$DIMDEC
 70
     2
  9
$DIMTDEC
 70
     2
  9
$DIMALTU
 70
     2
  9
$DIMALTTD
 70
     3
  9
$DIMTXSTY
  7
Standard
  9
$DIMAUNIT
 70
     0
  9
$DIMADEC
 70
     2
  9
$DIMALTRND
 40
0.0
  9
$DIMAZIN
 70
     0
  9
$DIMDSEP
 70
    44
  9
$DIMATFIT
 70
     3
  9
$DIMFRAC
 70
     0
  9
$DIMLDRBLK
  1

  9
$DIMLUNIT
 70
     2
  9
$DIMLWD
 70
    -2
  9
$DIMLWE
 70
    -2
  9
$DIMTMOVE
 70
     0
  9
$LUNITS
 70
     2
  9
$LUPREC
 70
     2
  9
$SKETCHINC
 40
1.0
  9
$FILLETRAD
 40
10.0
  9
$AUNITS
 70
     0
  9
$AUPREC
 70
     2
  9
$MENU
  1
.
  9
$ELEVATION
 40
0.0
  9
$PELEVATION
 40
0.0
  9
$THICKNESS
 40
0.0
  9
$LIMCHECK
 70
     0
  9
$CHAMFERA
 40
0.0
  9
$CHAMFERB
 40
0.0
  9
$CHAMFERC
 40
0.0
  9
$CHAMFERD
 40
0.0
  9
$SKPOLY
 70
     0
  9
$TDCREATE
 40
2459935.7006214
  9
$TDUCREATE
 40
2459935.5756214
  9
$TDUPDATE
 40
2459935.700621586
  9
$TDUUPDATE
 40
2459935.575621586
  9
$TDINDWG
 40
0.0000000116
  9
$TDUSRTIMER
 40
0.0000000116
  9
$USRTIMER
 70
     1
  9
$ANGBASE
 50
0.0
  9
$ANGDIR
 70
     0
  9
$PDMODE
 70
     0
  9
$PDSIZE
 40
-1.0
  9
$PLINEWID
 40
0.0
  9
$SPLFRAME
 70
     0
  9
$SPLINETYPE
 70
     6
  9
$SPLINESEGS
 70
     8
  9
$HANDSEED
  5
D2
  9
$SURFTAB1
 70
     6
  9
$SURFTAB2
 70
     6
  9
$SURFTYPE
 70
     6
  9
$SURFU
 70
     6
  9
$SURFV
 70
     6
  9
$UCSBASE
  2

  9
$UCSNAME
  2

  9
$UCSORG
 10
0.0
 20
0.0
 30
0.0
  9
$UCSXDIR
 10
1.0
 20
0.0
 30
0.0
  9
$UCSYDIR
 10
0.0
 20
1.0
 30
0.0
  9
$UCSORTHOREF
  2

  9
$UCSORTHOVIEW
 70
     0
  9
$UCSORGTOP
 10
0.0
 20
0.0
 30
0.0
  9
$UCSORGBOTTOM
 10
0.0
 20
0.0
 30
0.0
  9
$UCSORGLEFT
 10
0.0
 20
0.0
 30
0.0
  9
$UCSORGRIGHT
 10
0.0
 20
0.0
 30
0.0
  9
$UCSORGFRONT
 10
0.0
 20
0.0
 30
0.0
  9
$UCSORGBACK
 10
0.0
 20
0.0
 30
0.0
  9
$PUCSBASE
  2

  9
$PUCSNAME
  2

  9
$PUCSORG
 10
0.0
 20
0.0
 30
0.0
  9
$PUCSXDIR
 10
1.0
 20
0.0
 30
0.0
  9
$PUCSYDIR
 10
0.0
 20
1.0
 30
0.0
  9
$PUCSORTHOREF
  2

  9
$PUCSORTHOVIEW
 70
     0
  9
$PUCSORGTOP
 10
0.0
 20
0.0
 30
0.0
  9
$PUCSORGBOTTOM
 10
0.0
 20
0.0
 30
0.0
  9
$PUCSORGLEFT
 10
0.0
 20
0.0
 30
0.0
  9
$PUCSORGRIGHT
 10
0.0
 20
0.0
 30
0.0
  9
$PUCSORGFRONT
 10
0.0
 20
0.0
 30
0.0
  9
$PUCSORGBACK
 10
0.0
 20
0.0
 30
0.0
  9
$USERI1
 70
     0
  9
$USERI2
 70
     0
  9
$USERI3
 70
     0
  9
$USERI4
 70
     0
  9
$USERI5
 70
     0
  9
$USERR1
 40
0.0
  9
$USERR2
 40
0.0
  9
$USERR3
 40
0.0
  9
$USERR4
 40
0.0
  9
$USERR5
 40
0.0
  9
$WORLDVIEW
 70
     1
  9
$SHADEDGE
 70
     3
  9
$SHADEDIF
 70
    70
  9
$TILEMODE
 70
     1
  9
$MAXACTVP
 70
    64
  9
$PINSBASE
 10
0.0
 20
0.0
 30
0.0
  9
$PLIMCHECK
 70
     0
  9
$PEXTMIN
 10
1.0000000000E+20
 20
1.0000000000E+20
 30
1.0000000000E+20
  9
$PEXTMAX
 10
-1.0000000000E+20
 20
-1.0000000000E+20
 30
-1.0000000000E+20
  9
$PLIMMIN
 10
0.0
 20
0.0
  9
$PLIMMAX
 10
420.0
 20
297.0
  9
$UNITMODE
 70
     0
  9
$VISRETAIN
 70
     1
  9
$PLINEGEN
 70
     0
  9
$PSLTSCALE
 70
     1
  9
$TREEDEPTH
 70
  3020
  9
$CMLSTYLE
  2
Standard
  9
$CMLJUST
 70
     0
  9
$CMLSCALE
 40
20.0
  9
$PROXYGRAPHICS
 70
     1
  9
$MEASUREMENT
 70
     1
  9
$CELWEIGHT
370
    -1
  9
$ENDCAPS
280
     0
  9
$JOINSTYLE
280
     0
  9
$LWDISPLAY
290
     1
  9
$INSUNITS
 70
     4
  9
$HYPERLINKBASE
  1

  9
$STYLESHEET
  1

  9
$XEDIT
290
     1
  9
$CEPSNTYPE
380
     0
  9
$PSTYLEMODE
290
     1
  9
$FINGERPRINTGUID
  2
{7f4f7107-690b-4fd5-a886-bdc6adeba35d}
  9
$VERSIONGUID
  2
{FAEB1C32-E019-11D5-929B-00C0DF256EC4}
  9
$EXTNAMES
290
     1
  9
$PSVPSCALE
 40
0.0
  9
$OLESTARTUP
290
     0
  0
ENDSEC
  0
SECTION
  2
CLASSES
  0
CLASS
  1
ACDBDICTIONARYWDFLT
  2
AcDbDictionaryWithDefault
  3
ObjectDBX Classes
 90
        0
280
     0
281
     0
  0
CLASS
  1
VISUALSTYLE
  2
AcDbVisualStyle
  3
ObjectDBX Classes
 90
     4095
280
     0
281
     0
  0
CLASS
  1
MATERIAL
  2
AcDbMaterial
  3
ObjectDBX Classes
 90
     1153
280
     0
281
     0
  0
CLASS
  1
SCALE
  2
AcDbScale
  3
ObjectDBX Classes
 90
     1153
280
     0
281
     0
  0
CLASS
  1
TABLESTYLE
  2
AcDbTableStyle
  3
ObjectDBX Classes
 90
     4095
280
     0
281
     0
  0
CLASS
  1
MLEADERSTYLE
  2
AcDbMLeaderStyle
  3
ACDB_MLEADERSTYLE_CLASS
 90
     4095
280
     0
281
     0
  0
CLASS
  1
SUN
  2
AcDbSun
  3
SCENEOE
 90
     1153
280
     0
281
     0
  0
CLASS
  1
ACDBPLACEHOLDER
  2
AcDbPlaceHolder
  3
ObjectDBX Classes
 90
        0
280
     0
281
     0
  0
CLASS
  1
LAYOUT
  2
AcDbLayout
  3
ObjectDBX Classes
 90
        0
280
     0
281
     0
  0
ENDSEC
  0
SECTION
  2
TABLES
  0
TABLE
  2
VPORT
  5
8
330
0
100
AcDbSymbolTable
 70
     1
  0
VPORT
  5
29
330
8
100
AcDbSymbolTableRecord
100
AcDbViewportTableRecord
  2
*Active
 70
     0
 10
0.0
 20
0.0
 11
1.0
 21
1.0
 12
139.7
 22
107.95
 13
0.0
 23
0.0
 14
10.0
 24
10.0
 15
10.0
 25
10.0
 16
0.0
 26
0.0
 36
1.0
 17
0.0
 27
0.0
 37
0.0
 40
215.9
 41
1.2941176471
 42
50.0
 43
0.0
 44
0.0
 50
0.0
 51
0.0
 71
     0
 72
  2000
 73
     1
 74
     3
 75
     0
 76
     0
 77
     0
 78
     0
281
     0
 65
     1
110
0.0
120
0.0
130
0.0
111
1.0
121
0.0
131
0.0
112
0.0
122
1.0
132
0.0
 79
     0
146
0.0
  0
ENDTAB
  0
TABLE
  2
LTYPE
  5
5
330
0
100
AcDbSymbolTable
 70
     6
  0
LTYPE
  5
14
330
5
100
AcDbSymbolTableRecord
100
AcDbLinetypeTableRecord
  2
ByBlock
 70
     0
  3

 72
    65
 73
     0
 40
0.0
  0
LTYPE
  5
15
330
5
100
AcDbSymbolTableRecord
100
AcDbLinetypeTableRecord
  2
ByLayer
 70
     0
  3

 72
    65
 73
     0
 40
0.0
  0
LTYPE
  5
16
330
5
100
AcDbSymbolTableRecord
100
AcDbLinetypeTableRecord
  2
Continuous
 70
     0
  3
Solid line
 72
    65
 73
     0
 40
0.0
  0
LTYPE
  5
6E
330
5
100
AcDbSymbolTableRecord
100
AcDbLinetypeTableRecord
  2
HIDDEN
 70
     0
  3
Hidden __ __ __ __ __ __ __ __ __ __ __ __ __ __
 72
    65
 73
     2
 40
1.905
 49
1.27
 74
     0
 49
-0.635
 74
     0
  0
LTYPE
  5
6F
330
5
100
AcDbSymbolTableRecord
100
AcDbLinetypeTableRecord
  2
PHANTOM
 70
     0
  3
Phantom ______  __  __  ______  __  __  ______
 72
    65
 73
     6
 40
12.7
 49
6.35
 74
     0
 49
-1.27
 74
     0
 49
1.27
 74
     0
 49
-1.27
 74
     0
 49
1.27
 74
     0
 49
-1.27
 74
     0
  0
LTYPE
  5
70
330
5
100
AcDbSymbolTableRecord
100
AcDbLinetypeTableRecord
  2
CENTER
 70
     0
  3
Center ____ _ ____ _ ____ _ ____ _ ____ _ ____
 72
    65
 73
     4
 40
10.16
 49
6.35
 74
     0
 49
-1.27
 74
     0
 49
1.27
 74
     0
 49
-1.27
 74
     0
  0
LTYPE
  5
71
330
5
100
AcDbSymbolTableRecord
100
AcDbLinetypeTableRecord
  2
CENTERX2
 70
     0
  3
Center (2x) ________  __  ________  __  _____
 72
    65
 73
     4
 40
20.32
 49
12.7
 74
     0
 49
-2.54
 74
     0
 49
2.54
 74
     0
 49
-2.54
 74
     0
  0
LTYPE
  5
72
330
5
100
AcDbSymbolTableRecord
100
AcDbLinetypeTableRecord
  2
DOT2
 70
     0
  3
Dot (.5x) ........................................
 72
    65
 73
     2
 40
0.635
 49
0.0
 74
     0
 49
-0.635
 74
     0
  0
ENDTAB
  0
TABLE
  2
LAYER
  5
2
330
0
100
AcDbSymbolTable
 70
    17
  0
LAYER
  5
10
330
2
100
AcDbSymbolTableRecord
100
AcDbLayerTableRecord
  2
0
 70
     0
 62
     7
  6
Continuous
370
    -3
390
F
  0
LAYER
  5
73
330
2
100
AcDbSymbolTableRecord
100
AcDbLayerTableRecord
  2
FORMAT
 70
     0
 62
     7
  6
Continuous
370
    -3
390
F
  0
LAYER
  5
74
330
2
100
AcDbSymbolTableRecord
100
AcDbLayerTableRecord
  2
YARDIMCI_GEOMETRI
 70
     0
 62
    -6
  6
Continuous
290
     0
370
    -3
390
F
  0
LAYER
  5
75
330
2
100
AcDbSymbolTableRecord
100
AcDbLayerTableRecord
  2
SAYFA_CERCEVESI
 70
     0
 62
     7
  6
Continuous
370
    25
390
F
  0
LAYER
  5
76
330
2
100
AcDbSymbolTableRecord
100
AcDbLayerTableRecord
  2
ANTET
 70
     0
 62
     7
  6
Continuous
370
    -3
390
F
  0
LAYER
  5
77
330
2
100
AcDbSymbolTableRecord
100
AcDbLayerTableRecord
  2
OLCU
 70
     0
 62
   150
  6
Continuous
370
    -3
390
F
  0
LAYER
  5
78
330
2
100
AcDbSymbolTableRecord
100
AcDbLayerTableRecord
  2
METIN
 70
     0
 62
    96
  6
Continuous
370
    -3
390
F
  0
LAYER
  5
79
330
2
100
AcDbSymbolTableRecord
100
AcDbLayerTableRecord
  2
BALON
 70
     0
 62
     5
  6
Continuous
370
    -3
390
F
  0
LAYER
  5
7A
330
2
100
AcDbSymbolTableRecord
100
AcDbLayerTableRecord
  2
VURGU
 70
     0
 62
     7
  6
Continuous
370
    -3
390
F
  0
LAYER
  5
7B
330
2
100
AcDbSymbolTableRecord
100
AcDbLayerTableRecord
  2
SILIK
 70
     0
 62
     7
  6
Continuous
370
    -3
390
F
  0
LAYER
  5
7C
330
2
100
AcDbSymbolTableRecord
100
AcDbLayerTableRecord
  2
MODEL
 70
     0
 62
     7
  6
Continuous
370
    -3
390
F
  0
LAYER
  5
7D
330
2
100
AcDbSymbolTableRecord
100
AcDbLayerTableRecord
  2
DETAYLANDıRMA
 70
     0
 62
   190
  6
Continuous
370
    -3
390
F
  0
LAYER
  5
7E
330
2
100
AcDbSymbolTableRecord
100
AcDbLayerTableRecord
  2
TOLERANS
 70
     0
 62
   230
  6
Continuous
370
    -3
390
F
  0
LAYER
  5
7F
330
2
100
AcDbSymbolTableRecord
100
AcDbLayerTableRecord
  2
MERKEZ_CIZGILERI
 70
     0
 62
    30
  6
Continuous
370
    -3
390
F
  0
LAYER
  5
80
330
2
100
AcDbSymbolTableRecord
100
AcDbLayerTableRecord
  2
KESIT-DETAY_CIZGILERI
 70
     0
 62
     7
  6
Continuous
370
    -3
390
F
  0
LAYER
  5
81
330
2
100
AcDbSymbolTableRecord
100
AcDbLayerTableRecord
  2
\U+041E\U+0421\U+0415\U+0412\U+042B\U+0415
 70
     0
 62
     7
  6
Continuous
370
    -3
390
F
  0
LAYER
  5
82
330
2
100
AcDbSymbolTableRecord
100
AcDbLayerTableRecord
  2
\U+0412\U+041E\U+0414\U+042F\U+041D\U+042B\U+0415_\U+0417\U+041D\U+0410\U+041A\U+0418
 70
     0
 62
    11
  6
Continuous
370
    -3
390
F
  0
ENDTAB
  0
TABLE
  2
STYLE
  5
3
330
0
100
AcDbSymbolTable
 70
     1
  0
STYLE
  5
11
330
3
100
AcDbSymbolTableRecord
100
AcDbTextStyleTableRecord
  2
Standard
 70
     0
 40
0.0
 41
1.0
 50
0.0
 71
     0
 42
3.5
  3
txt
  4

  0
ENDTAB
  0
TABLE
  2
VIEW
  5
6
330
0
100
AcDbSymbolTable
 70
     0
  0
ENDTAB
  0
TABLE
  2
UCS
  5
7
330
0
100
AcDbSymbolTable
 70
     0
  0
ENDTAB
  0
TABLE
  2
APPID
  5
9
330
0
100
AcDbSymbolTable
 70
     1
  0
APPID
  5
12
330
9
100
AcDbSymbolTableRecord
100
AcDbRegAppTableRecord
  2
ACAD
 70
     0
  0
ENDTAB
  0
TABLE
  2
DIMSTYLE
  5
A
330
0
100
AcDbSymbolTable
 70
     1
100
AcDbDimStyleTable
  0
DIMSTYLE
105
27
330
A
100
AcDbSymbolTableRecord
100
AcDbDimStyleTableRecord
  2
ISO-25
 70
     0
 41
2.5
 42
0.625
 43
3.75
 44
1.25
 73
     0
 74
     0
 77
     1
 78
     8
140
2.5
141
2.5
143
0.0393700787
147
0.625
171
     3
172
     1
178
     0
271
     2
272
     2
274
     3
278
    44
283
     0
284
     8
340
11
  0
ENDTAB
  0
TABLE
  2
BLOCK_RECORD
  5
1
330
0
100
AcDbSymbolTable
 70
     3
  0
BLOCK_RECORD
  5
1F
330
1
100
AcDbSymbolTableRecord
100
AcDbBlockTableRecord
  2
*Model_Space
340
22
  0
BLOCK_RECORD
  5
1B
330
1
100
AcDbSymbolTableRecord
100
AcDbBlockTableRecord
  2
*Paper_Space
340
1E
  0
BLOCK_RECORD
  5
23
330
1
100
AcDbSymbolTableRecord
100
AcDbBlockTableRecord
  2
*Paper_Space0
340
26
  0
BLOCK_RECORD
  5
AA
330
1
100
AcDbSymbolTableRecord
100
AcDbBlockTableRecord
  2
SW_CENTERMARKSYMBOL_0
340
0
102
{BLKREFS
331
B5
102
}
  0
BLOCK_RECORD
  5
C5
330
1
100
AcDbSymbolTableRecord
100
AcDbBlockTableRecord
  2
SW_CENTERMARKSYMBOL_1
340
0
102
{BLKREFS
331
D0
102
}
  0
ENDTAB
  0
ENDSEC
  0
SECTION
  2
BLOCKS
  0
BLOCK
  5
20
330
1F
100
AcDbEntity
  8
0
100
AcDbBlockBegin
  2
*Model_Space
 70
     0
 10
0.0
 20
0.0
 30
0.0
  3
*Model_Space
  1

  0
ENDBLK
  5
21
330
1F
100
AcDbEntity
  8
0
100
AcDbBlockEnd
  0
BLOCK
  5
1C
330
1B
100
AcDbEntity
 67
     1
  8
0
100
AcDbBlockBegin
  2
*Paper_Space
 70
     0
 10
0.0
 20
0.0
 30
0.0
  3
*Paper_Space
  1

  0
ENDBLK
  5
1D
330
1B
100
AcDbEntity
 67
     1
  8
0
100
AcDbBlockEnd
  0
BLOCK
  5
24
330
23
100
AcDbEntity
  8
0
100
AcDbBlockBegin
  2
*Paper_Space0
 70
     0
 10
0.0
 20
0.0
 30
0.0
  3
*Paper_Space0
  1

  0
ENDBLK
  5
25
330
23
100
AcDbEntity
  8
0
100
AcDbBlockEnd
  0
BLOCK
  5
AB
330
AA
100
AcDbEntity
  8
0
100
AcDbBlockBegin
  2
SW_CENTERMARKSYMBOL_0
 70
     0
 10
0.0
 20
0.0
 30
0.0
  3
SW_CENTERMARKSYMBOL_0
  1

  0
LINE
  5
AD
330
AA
100
AcDbEntity
  8
FORMAT
 62
     0
100
AcDbLine
 10
0.0
 20
0.0
 30
0.0
 11
0.0
 21
2.5
 31
0.0
  0
LINE
  5
AE
330
AA
100
AcDbEntity
  8
FORMAT
 62
     0
100
AcDbLine
 10
0.0
 20
0.0
 30
0.0
 11
-2.5
 21
0.0
 31
0.0
  0
LINE
  5
AF
330
AA
100
AcDbEntity
  8
FORMAT
 62
     0
100
AcDbLine
 10
0.0
 20
0.0
 30
0.0
 11
0.0
 21
-2.5
 31
0.0
  0
LINE
  5
B0
330
AA
100
AcDbEntity
  8
FORMAT
 62
     0
100
AcDbLine
 10
0.0
 20
0.0
 30
0.0
 11
2.5
 21
0.0
 31
0.0
  0
LINE
  5
B1
330
AA
100
AcDbEntity
  8
FORMAT
 62
     0
100
AcDbLine
 10
0.0
 20
5.0
 30
0.0
 11
0.0
 21
227.5
 31
0.0
  0
LINE
  5
B2
330
AA
100
AcDbEntity
  8
FORMAT
 62
     0
100
AcDbLine
 10
-5.0
 20
0.0
 30
0.0
 11
-227.5
 21
0.0
 31
0.0
  0
LINE
  5
B3
330
AA
100
AcDbEntity
  8
FORMAT
 62
     0
100
AcDbLine
 10
0.0
 20
-5.0
 30
0.0
 11
0.0
 21
-227.5
 31
0.0
  0
LINE
  5
B4
330
AA
100
AcDbEntity
  8
FORMAT
 62
     0
100
AcDbLine
 10
5.0
 20
0.0
 30
0.0
 11
227.5
 21
0.0
 31
0.0
  0
ENDBLK
  5
AC
330
AA
100
AcDbEntity
  8
0
100
AcDbBlockEnd
  0
BLOCK
  5
C6
330
C5
100
AcDbEntity
  8
0
100
AcDbBlockBegin
  2
SW_CENTERMARKSYMBOL_1
 70
     0
 10
0.0
 20
0.0
 30
0.0
  3
SW_CENTERMARKSYMBOL_1
  1

  0
LINE
  5
C8
330
C5
100
AcDbEntity
  8
FORMAT
 62
     0
100
AcDbLine
 10
0.0
 20
0.0
 30
0.0
 11
0.0
 21
2.5
 31
0.0
  0
LINE
  5
C9
330
C5
100
AcDbEntity
  8
FORMAT
 62
     0
100
AcDbLine
 10
0.0
 20
0.0
 30
0.0
 11
-2.5
 21
0.0
 31
0.0
  0
LINE
  5
CA
330
C5
100
AcDbEntity
  8
FORMAT
 62
     0
100
AcDbLine
 10
0.0
 20
0.0
 30
0.0
 11
0.0
 21
-2.5
 31
0.0
  0
LINE
  5
CB
330
C5
100
AcDbEntity
  8
FORMAT
 62
     0
100
AcDbLine
 10
0.0
 20
0.0
 30
0.0
 11
2.5
 21
0.0
 31
0.0
  0
LINE
  5
CC
330
C5
100
AcDbEntity
  8
FORMAT
 62
     0
100
AcDbLine
 10
0.0
 20
5.0
 30
0.0
 11
0.0
 21
227.5
 31
0.0
  0
LINE
  5
CD
330
C5
100
AcDbEntity
  8
FORMAT
 62
     0
100
AcDbLine
 10
-5.0
 20
0.0
 30
0.0
 11
-227.5
 21
0.0
 31
0.0
  0
LINE
  5
CE
330
C5
100
AcDbEntity
  8
FORMAT
 62
     0
100
AcDbLine
 10
0.0
 20
-5.0
 30
0.0
 11
0.0
 21
-227.5
 31
0.0
  0
LINE
  5
CF
330
C5
100
AcDbEntity
  8
FORMAT
 62
     0
100
AcDbLine
 10
5.0
 20
0.0
 30
0.0
 11
227.5
 21
0.0
 31
0.0
  0
ENDBLK
  5
C7
330
C5
100
AcDbEntity
  8
0
100
AcDbBlockEnd
  0
ENDSEC
  0
SECTION
  2
ENTITIES
  0
LINE
  5
83
330
1F
100
AcDbEntity
  8
0
  6
Continuous
 62
     7
370
    25
100
AcDbLine
 10
217.6414035644
 20
1548.5760592618
 30
0.0
 11
217.6414035644
 21
1808.5760592618
 31
0.0
  0
LINE
  5
84
330
1F
100
AcDbEntity
  8
0
  6
Continuous
 62
     7
370
    25
100
AcDbLine
 10
217.6414035644
 20
838.5760592618
 30
0.0
 11
217.6414035644
 21
1098.5760592618
 31
0.0
  0
LINE
  5
85
330
1F
100
AcDbEntity
  8
0
  6
Continuous
 62
     7
370
    25
100
AcDbLine
 10
-232.3585964356
 20
1808.5760592618
 30
0.0
 11
-232.3585964356
 21
838.5760592618
 31
0.0
  0
LINE
  5
86
330
1F
100
AcDbEntity
  8
0
  6
Continuous
 62
     7
370
    25
100
AcDbLine
 10
217.6414035644
 20
1098.5760592618
 30
0.0
 11
477.6414035644
 21
1098.5760592618
 31
0.0
  0
LINE
  5
87
330
1F
100
AcDbEntity
  8
0
  6
Continuous
 62
     7
370
    25
100
AcDbLine
 10
477.6414035644
 20
1548.5760592618
 30
0.0
 11
217.6414035644
 21
1548.5760592618
 31
0.0
  0
LINE
  5
88
330
1F
100
AcDbEntity
  8
0
  6
Continuous
 62
     7
370
    25
100
AcDbLine
 10
217.6414035644
 20
1548.5760592618
 30
0.0
 11
-7.3585964356
 21
1323.5760592618
 31
0.0
  0
LINE
  5
89
330
1F
100
AcDbEntity
  8
0
  6
Continuous
 62
     7
370
    25
100
AcDbLine
 10
-7.3585964356
 20
1323.5760592618
 30
0.0
 11
217.6414035644
 21
1098.5760592618
 31
0.0
  0
LINE
  5
8A
330
1F
100
AcDbEntity
  8
0
  6
Continuous
 62
     7
370
    25
100
AcDbLine
 10
-232.3585964356
 20
1808.5760592618
 30
0.0
 11
217.6414035644
 21
1808.5760592618
 31
0.0
  0
LINE
  5
8B
330
1F
100
AcDbEntity
  8
0
  6
Continuous
 62
     7
370
    25
100
AcDbLine
 10
-232.3585964356
 20
838.5760592618
 30
0.0
 11
217.6414035644
 21
838.5760592618
 31
0.0
  0
LINE
  5
8C
330
1F
100
AcDbEntity
  8
0
  6
Continuous
 62
     7
370
    25
100
AcDbLine
 10
477.6414035644
 20
1548.5760592618
 30
0.0
 11
477.6414035644
 21
1098.5760592618
 31
0.0
  0
LINE
  5
8D
330
1F
100
AcDbEntity
  8
0
  6
Continuous
 62
     7
370
    25
100
AcDbLine
 10
1519.5466457112
 20
-118.5517129356
 30
0.0
 11
2004.5466457112
 21
-118.5517129356
 31
0.0
  0
LINE
  5
8E
330
1F
100
AcDbEntity
  8
0
  6
Continuous
 62
     7
370
    25
100
AcDbLine
 10
1034.5466457112
 20
-118.5517129356
 30
0.0
 11
1519.5466457112
 21
-118.5517129356
 31
0.0
  0
LINE
  5
8F
330
1F
100
AcDbEntity
  8
0
  6
Continuous
 62
     7
370
    25
100
AcDbLine
 10
1519.5466457112
 20
331.4482870644
 30
0.0
 11
1034.5466457112
 21
331.4482870644
 31
0.0
  0
LINE
  5
90
330
1F
100
AcDbEntity
  8
0
  6
Continuous
 62
     7
370
    25
100
AcDbLine
 10
2004.5466457112
 20
331.4482870644
 30
0.0
 11
1519.5466457112
 21
331.4482870644
 31
0.0
  0
LINE
  5
91
330
1F
100
AcDbEntity
  8
0
  6
Continuous
 62
     7
370
    25
100
AcDbLine
 10
2004.5466457112
 20
331.4482870644
 30
0.0
 11
2004.5466457112
 21
-118.5517129356
 31
0.0
  0
LINE
  5
92
330
1F
100
AcDbEntity
  8
0
  6
Continuous
 62
     7
370
    25
100
AcDbLine
 10
1034.5466457112
 20
331.4482870644
 30
0.0
 11
1034.5466457112
 21
-118.5517129356
 31
0.0
  0
LINE
  5
93
330
1F
100
AcDbEntity
  8
0
  6
Continuous
 62
     7
370
    25
100
AcDbLine
 10
1689.5238643851
 20
-1229.0599302758
 30
0.0
 11
1919.979795839
 21
-1096.0205528702
 31
0.0
  0
LINE
  5
94
330
1F
100
AcDbEntity
  8
0
  6
Continuous
 62
     7
370
    25
100
AcDbLine
 10
1694.9980809959
 20
-706.2985647989
 30
0.0
 11
1464.542149542
 21
-839.3379422045
 31
0.0
  0
LINE
  5
95
330
1F
100
AcDbEntity
  8
0
  6
Continuous
 62
     7
370
    25
100
AcDbLine
 10
1464.542149542
 20
-839.3379422045
 30
0.0
 11
1234.086218088
 21
-706.2985647989
 31
0.0
  0
LINE
  5
96
330
1F
100
AcDbEntity
  8
0
  6
Continuous
 62
     7
370
    25
100
AcDbLine
 10
1919.979795839
 20
-1102.256499033
 30
0.0
 11
1914.578722828
 21
-1099.1385259516
 31
0.0
  0
LINE
  5
97
330
1F
100
AcDbEntity
  8
0
  6
Continuous
 62
     7
370
    25
100
AcDbLine
 10
1009.1045032449
 20
-1096.0205528702
 30
0.0
 11
1694.9980809959
 21
-1491.9784871043
 31
0.0
  0
LWPOLYLINE
  5
98
330
1F
100
AcDbEntity
  8
0
  6
Continuous
 62
     7
370
    25
100
AcDbPolyline
 90
      150
 70
   128
 43
0.0
 10
1947.7082131267
 20
-982.1064231218
 10
1947.58356075
 20
-975.2084753083
 10
1947.2098252473
 20
-968.1788712236
 10
1946.5876711066
 20
-961.0301092472
 10
1945.7182044953
 20
-953.774899617
 10
1944.6029712934
 20
-946.426141831
 10
1943.2439543447
 20
-938.9969017124
 10
1941.6435699317
 20
-931.5003881789
 10
1939.8046634797
 20
-923.949929758
 10
1937.7305044971
 20
-916.3589508894
 10
1935.4247807629
 20
-908.7409480563
 10
1932.8915917698
 20
-901.1094657899
 10
1930.1354414353
 20
-893.4780725871
 10
1927.1612300942
 20
-885.8603367865
 10
1923.9742457857
 20
-878.2698024444
 10
1920.5801548516
 20
-870.7199652538
 10
1916.9849918618
 20
-863.2242485498
 10
1913.1951488847
 20
-855.7959794431
 10
1909.217364123
 20
-848.4483651251
 10
1905.0587099327
 20
-841.194469386
 10
1900.7265802493
 20
-834.0471893875
 10
1896.2286774413
 20
-827.0192327328
 10
1891.5729986156
 20
-820.1230948724
 10
1886.7678213994
 20
-813.3710368875
 10
1881.8216892224
 20
-806.7750636911
 10
1876.743396127
 20
-800.3469026826
 10
1871.5419711332
 20
-794.0979828978
 10
1866.2266621847
 20
-788.039414688
 10
1860.8069197068
 20
-782.1819699665
 10
1855.292379804
 20
-776.5360630561
 10
1849.6928471268
 20
-771.1117321732
 10
1844.0182774401
 20
-765.9186215804
 10
1838.2787599217
 20
-760.9659644387
 10
1832.4844992243
 20
-756.2625663917
 10
1826.6457973319
 20
-751.8167899095
 10
1820.7730352435
 20
-747.6365394205
 10
1814.8766545157
 20
-743.7292472575
 10
1808.9671386982
 20
-740.1018604434
 10
1803.0549946946
 20
-736.7608283396
 10
1797.1507340812
 20
-733.7120911792
 10
1791.2648544177
 20
-730.9610695056
 10
1785.4078205836
 20
-728.5126545349
 10
1779.5900461712
 20
-726.3711994598
 10
1773.821874971
 20
-724.540511709
 10
1768.1135625811
 20
-723.0238461786
 10
1762.4752581724
 20
-721.8238994447
 10
1756.9169864446
 20
-720.9428049687
 10
1751.4486298019
 20
-720.3821293043
 10
1746.0799107827
 20
-720.1428693126
 10
1740.8203747737
 20
-720.225450389
 10
1735.679373038
 20
-720.6297257074
 10
1730.6660460889
 20
-721.354976481
 10
1725.7893074389
 20
-722.3999132404
 10
1721.0578277513
 20
-723.7626781262
 10
1716.4800194244
 20
-725.4408481922
 10
1712.0640216342
 20
-727.4314397132
 10
1707.8176858637
 20
-729.7309134901
 10
1703.748561943
 20
-732.3351811425
 10
1699.8638846258
 20
-735.2396123775
 10
1696.1705607268
 20
-738.4390432224
 10
1692.6751568409
 20
-741.9277852059
 10
1689.3838876687
 20
-745.6996354721
 10
1686.3026049668
 20
-749.7478878088
 10
1683.4367871433
 20
-754.0653445711
 10
1680.7915295177
 20
-758.6443294785
 10
1678.3715352616
 20
-763.4767012629
 10
1676.1811070364
 20
-768.5538681435
 10
1674.2241393436
 20
-773.8668031031
 10
1672.5041116003
 20
-779.406059937
 10
1671.0240819531
 20
-785.1617900488
 10
1669.7866818406
 20
-791.1237599604
 10
1668.7941113152
 20
-797.2813695069
 10
1668.048135131
 20
-803.6236706832
 10
1667.5500796064
 20
-810.1393871092
 10
1667.300830266
 20
-816.8169340789
 10
1667.300830266
 20
-823.6444391576
 10
1667.5500796064
 20
-830.6097632903
 10
1668.048135131
 20
-837.7005223848
 10
1668.7941113152
 20
-844.9041093304
 10
1669.7866818406
 20
-852.2077164123
 10
1671.0240819531
 20
-859.5983580836
 10
1672.5041116003
 20
-867.0628940531
 10
1674.2241393436
 20
-874.5880526483
 10
1676.1811070364
 20
-882.1604544119
 10
1678.3715352616
 20
-889.7666358898
 10
1680.7915295177
 20
-897.3930735689
 10
1683.4367871433
 20
-905.0262079214
 10
1686.3026049668
 20
-912.6524675129
 10
1689.3838876687
 20
-920.2582931321
 10
1692.6751568409
 20
-927.8301618988
 10
1696.1705607268
 20
-935.3546113065
 10
1699.8638846258
 20
-942.8182631588
 10
1703.748561943
 20
-950.2078473551
 10
1707.8176858637
 20
-957.5102254842
 10
1712.0640216342
 20
-964.7124141845
 10
1716.4800194244
 20
-971.8016082272
 10
1721.0578277513
 20
-978.7652032841
 10
1725.7893074389
 20
-985.5908183371
 10
1730.6660460889
 20
-992.266317692
 10
1735.679373038
 20
-998.7798325543
 10
1740.8203747738
 20
-1005.1197821324
 10
1746.0799107827
 20
-1011.2748942273
 10
1751.4486298019
 20
-1017.2342252743
 10
1756.9169864446
 20
-1022.9871798003
 10
1762.4752581725
 20
-1028.5235292621
 10
1768.1135625811
 20
-1033.8334302324
 10
1773.821874971
 20
-1038.907441901
 10
1779.5900461712
 20
-1043.7365428603
 10
1785.4078205836
 20
-1048.3121471451
 10
1791.2648544177
 20
-1052.6261194979
 10
1797.1507340812
 20
-1056.6707898333
 10
1803.0549946946
 20
-1060.4389668751
 10
1808.9671386982
 20
-1063.923950942
 10
1814.8766545157
 20
-1067.1195458594
 10
1820.7730352435
 20
-1070.0200699763
 10
1826.6457973319
 20
-1072.6203662667
 10
1832.4844992243
 20
-1074.9158114985
 10
1838.2787599217
 20
-1076.902324454
 10
1844.0182774401
 20
-1078.5763731856
 10
1849.6928471268
 20
-1079.9349812958
 10
1855.292379804
 20
-1080.9757332288
 10
1860.8069197068
 20
-1081.6967785659
 10
1866.2266621847
 20
-1082.0968353146
 10
1871.5419711332
 20
-1082.1751921886
 10
1876.7433961271
 20
-1081.9317098724
 10
1881.8216892224
 20
-1081.3668212685
 10
1886.7678213994
 20
-1080.4815307284
 10
1891.5729986156
 20
-1079.2774122662
 10
1896.2286774413
 20
-1077.7566067606
 10
1900.7265802493
 20
-1075.9218181484
 10
1905.0587099327
 20
-1073.7763086168
 10
1909.217364123
 20
-1071.3238928033
 10
1913.1951488847
 20
-1068.5689310138
 10
1916.9849918618
 20
-1065.5163214699
 10
1920.5801548516
 20
-1062.1714915999
 10
1923.9742457857
 20
-1058.5403883893
 10
1927.1612300942
 20
-1054.6294678069
 10
1930.1354414353
 20
-1050.4456833271
 10
1932.8915917698
 20
-1045.9964735657
 10
1935.4247807629
 20
-1041.2897490555
 10
1937.7305044971
 20
-1036.3338781809
 10
1939.8046634797
 20
-1031.1376722994
 10
1941.6435699317
 20
-1025.7103700755
 10
1943.2439543447
 20
-1020.0616210543
 10
1944.6029712934
 20
-1014.2014685057
 10
1945.7182044953
 20
-1008.1403315669
 10
1946.5876711066
 20
-1001.8889867182
 10
1947.2098252473
 20
-995.4585486227
 10
1947.58356075
 20
-988.8604503646
 10
1947.7082131267
 20
-982.1064231218
  0
LWPOLYLINE
  5
99
330
1F
100
AcDbEntity
  8
0
  6
Continuous
 62
     7
370
    25
100
AcDbPolyline
 90
      160
 70
   128
 43
0.0
 10
1966.5879641844
 20
-993.0054714146
 10
1966.4637570631
 20
-985.6755482774
 10
1966.091329634
 20
-978.2136634554
 10
1965.4712633982
 20
-970.6314677958
 10
1964.6045265156
 20
-962.9407999972
 10
1963.4924722929
 20
-955.1536681244
 10
1962.1368370708
 20
-947.2822308594
 10
1960.5397375128
 20
-939.3387785172
 10
1958.7036673002
 20
-931.3357138556
 10
1956.6314932387
 20
-923.28553271
 10
1954.3264507821
 20
-915.2008044827
 10
1951.7921389807
 20
-907.0941525172
 10
1949.0325148614
 20
-898.9782343881
 10
1946.0518872497
 20
-890.8657221381
 10
1942.8549100418
 20
-882.7692824923
 10
1939.4465749382
 20
-874.7015570799
 10
1935.8322036494
 20
-866.6751426964
 10
1932.0174395872
 20
-858.7025716352
 10
1928.0082390529
 20
-850.7962921196
 10
1923.8108619371
 20
-842.9686488665
 10
1919.431861946
 20
-835.2318638116
 10
1914.8780763683
 20
-827.5980170264
 10
1910.1566153994
 20
-820.0790278565
 10
1905.2748510404
 20
-812.6866363108
 10
1900.2404055867
 20
-805.4323847313
 10
1895.0611397273
 20
-798.3275997707
 10
1889.7451402709
 20
-791.3833747072
 10
1884.3007075198
 20
-784.6105521241
 10
1878.7363423093
 20
-778.0197069797
 10
1873.0607327352
 20
-771.6211300964
 10
1867.2827405882
 20
-765.4248120925
 10
1861.411387517
 20
-759.4404277829
 10
1855.4558409425
 20
-753.6773210734
 10
1849.4253997437
 20
-748.1444903709
 10
1843.3294797387
 20
-742.8505745339
 10
1837.177598983
 20
-737.8038393834
 10
1830.9793629081
 20
-733.0121647974
 10
1824.7444493238
 20
-728.4830324069
 10
1818.4825933076
 20
-724.2235139144
 10
1812.2035720042
 20
-720.2402600525
 10
1805.9171893602
 20
-716.5394901993
 10
1799.6332608158
 20
-713.1269826675
 10
1793.3615979795
 20
-710.0080656826
 10
1787.1119933082
 20
-707.1876090632
 10
1780.8942048178
 20
-704.6700166175
 10
1774.7179408469
 20
-702.4592192672
 10
1768.5928448986
 20
-700.5586689101
 10
1762.5284805831
 20
-698.9713330298
 10
1756.5343166853
 20
-697.6996900629
 10
1750.6197123807
 20
-696.7457255289
 10
1744.7939026218
 20
-696.1109289303
 10
1739.065983719
 20
-695.7962914266
 10
1733.4448991376
 20
-695.8023042868
 10
1727.939425534
 20
-696.1289581226
 10
1722.5581590516
 20
-696.7757429028
 10
1717.3095018994
 20
-697.7416487498
 10
1712.2016492323
 20
-699.0251675163
 10
1707.242576356
 20
-700.6242951399
 10
1702.4400262741
 20
-702.5365347729
 10
1697.8014975984
 20
-704.75890068
 10
1693.334232841
 20
-707.2879229006
 10
1689.0452071052
 20
-710.1196526668
 10
1684.9411171959
 20
-713.2496685686
 10
1681.028371162
 20
-716.6730834579
 10
1677.3130782922
 20
-720.3845520786
 10
1673.8010395751
 20
-724.378279413
 10
1670.4977386424
 20
-728.6480297301
 10
1667.4083332063
 20
-733.1871363215
 10
1664.5376470066
 20
-737.9885119112
 10
1661.8901622792
 20
-743.0446597211
 10
1659.470012757
 20
-748.3476851765
 10
1657.2809772164
 20
-753.8893082328
 10
1655.3264735765
 20
-759.6608763034
 10
1653.6095535626
 20
-765.6533777699
 10
1652.1328979416
 20
-771.8574560525
 10
1650.8988123359
 20
-778.2634242196
 10
1649.9092236237
 20
-784.8612801122
 10
1649.1656769304
 20
-791.6407219616
 10
1648.6693332157
 20
-798.5911644741
 10
1648.4209674616
 20
-805.7017553588
 10
1648.4209674616
 20
-812.9613922721
 10
1648.6693332157
 20
-820.3587401527
 10
1649.1656769304
 20
-827.8822489201
 10
1649.9092236237
 20
-835.5201715083
 10
1650.8988123359
 20
-843.260582208
 10
1652.1328979416
 20
-851.0913952867
 10
1653.6095535626
 20
-859.0003838594
 10
1655.3264735765
 20
-866.9751989791
 10
1657.2809772164
 20
-875.0033889188
 10
1659.470012757
 20
-883.072418613
 10
1661.8901622792
 20
-891.1696892295
 10
1664.5376470066
 20
-899.2825578415
 10
1667.4083332063
 20
-907.3983571678
 10
1670.4977386424
 20
-915.5044153511
 10
1673.8010395751
 20
-923.5880757437
 10
1677.3130782922
 20
-931.6367166697
 10
1681.028371162
 20
-939.6377711315
 10
1684.9411171959
 20
-947.5787464324
 10
1689.0452071052
 20
-955.4472436823
 10
1693.334232841
 20
-963.2309771565
 10
1697.8014975984
 20
-970.9177934794
 10
1702.4400262741
 20
-978.4956905997
 10
1707.242576356
 20
-985.9528365305
 10
1712.2016492323
 20
-993.2775878239
 10
1717.3095018994
 20
-1000.45850775
 10
1722.5581590516
 20
-1007.4843841549
 10
1727.939425534
 20
-1014.3442469665
 10
1733.4448991376
 20
-1021.0273853235
 10
1739.065983719
 20
-1027.5233642986
 10
1744.7939026218
 20
-1033.8220411917
 10
1750.6197123807
 20
-1039.9135813666
 10
1756.5343166853
 20
-1045.7884736065
 10
1762.5284805831
 20
-1051.4375449644
 10
1768.5928448986
 20
-1056.851975086
 10
1774.7179408469
 20
-1062.0233099815
 10
1780.8942048178
 20
-1066.9434752252
 10
1787.1119933082
 20
-1071.6047885632
 10
1793.3615979795
 20
-1075.999971908
 10
1799.6332608158
 20
-1080.1221627027
 10
1805.9171893602
 20
-1083.9649246355
 10
1812.2035720042
 20
-1087.52225769
 10
1818.4825933076
 20
-1090.7886075127
 10
1824.7444493238
 20
-1093.7588740863
 10
1830.9793629081
 20
-1096.428419692
 10
1837.177598983
 20
-1098.7930761513
 10
1843.3294797387
 20
-1100.8491513339
 10
1849.4253997437
 20
-1102.5934349223
 10
1855.4558409425
 20
-1104.0232034249
 10
1861.411387517
 20
-1105.1362244277
 10
1867.2827405882
 20
-1105.9307600808
 10
1873.0607327352
 20
-1106.4055698109
 10
1878.7363423093
 20
-1106.559912259
 10
1884.3007075198
 20
-1106.3935464378
 10
1889.7451402709
 20
-1105.9067321076
 10
1895.0611397273
 20
-1105.1002293714
 10
1900.2404055867
 20
-1103.9752974873
 10
1905.2748510404
 20
-1102.533692903
 10
1910.1566153994
 20
-1100.7776665129
 10
1914.8780763683
 20
-1098.7099601437
 10
1919.431861946
 20
-1096.3338022735
 10
1923.8108619371
 20
-1093.6529029908
 10
1928.0082390529
 20
-1090.6714482015
 10
1932.0174395872
 20
-1087.3940930934
 10
1935.8322036494
 20
-1083.8259548674
 10
1939.4465749382
 20
-1079.9726047479
 10
1942.8549100418
 20
-1075.8400592835
 10
1946.0518872497
 20
-1071.4347709534
 10
1949.0325148614
 20
-1066.7636180926
 10
1951.7921389807
 20
-1061.8338941516
 10
1954.3264507821
 20
-1056.6532963092
 10
1956.6314932387
 20
-1051.2299134539
 10
1958.7036673002
 20
-1045.5722135543
 10
1960.5397375128
 20
-1039.6890304372
 10
1962.1368370708
 20
-1033.5895499946
 10
1963.4924722929
 20
-1027.2832958412
 10
1964.6045265156
 20
-1020.7801144443
 10
1965.4712633982
 20
-1014.0901597496
 10
1966.091329634
 20
-1007.2238773272
 10
1966.4637570631
 20
-1000.1919880621
 10
1966.5879641844
 20
-993.0054714146
  0
ELLIPSE
  5
9A
330
1F
100
AcDbEntity
  8
0
  6
Continuous
 62
     7
370
    25
100
AcDbEllipse
 10
1464.542149542
 20
-1099.1385259516
 30
0.0
 11
318.1980515339465
 21
4.547473508864641E-13
 31
0.0
210
0.0
220
0.0
230
1.0
 40
0.5773815452
 41
4.712388980384697
 42
5.49770587972005
  0
LINE
  5
9B
330
1F
100
AcDbEntity
  8
0
  6
Continuous
 62
     7
370
    25
100
AcDbLine
 10
1464.542149542
 20
-839.3379422045
 30
0.0
 11
1464.542149542
 21
-1282.8602086259
 31
0.0
  0
LWPOLYLINE
  5
9C
330
1F
100
AcDbEntity
  8
0
  6
Continuous
 62
     7
370
    25
100
AcDbPolyline
 90
      150
 70
   128
 43
0.0
 10
1261.8146353758
 20
-820.2126945474
 10
1261.6899829991
 20
-813.4586673046
 10
1261.3162474963
 20
-806.8605690465
 10
1260.6940933557
 20
-800.430130951
 10
1259.8246267444
 20
-794.1787861023
 10
1258.7093935424
 20
-788.1176491635
 10
1257.3503765937
 20
-782.2574966148
 10
1255.7499921808
 20
-776.6087475937
 10
1253.9110857287
 20
-771.1814453698
 10
1251.8369267461
 20
-765.9852394883
 10
1249.5312030119
 20
-761.0293686136
 10
1246.9980140188
 20
-756.3226441035
 10
1244.2418636843
 20
-751.8734343421
 10
1241.2676523433
 20
-747.6896498622
 10
1238.0806680348
 20
-743.7787292799
 10
1234.6865771007
 20
-740.1476260693
 10
1231.0914141108
 20
-736.8027961993
 10
1227.3015711338
 20
-733.7501866554
 10
1223.323786372
 20
-730.9952248659
 10
1219.1651321818
 20
-728.5428090524
 10
1214.8330024984
 20
-726.3972995208
 10
1210.3350996903
 20
-724.5625109086
 10
1205.6794208647
 20
-723.041705403
 10
1200.8742436485
 20
-721.8375869408
 10
1195.9281114714
 20
-720.9522964007
 10
1190.8498183761
 20
-720.3874077968
 10
1185.6483933823
 20
-720.1439254806
 10
1180.3330844337
 20
-720.2222823546
 10
1174.9133419559
 20
-720.6223391033
 10
1169.398802053
 20
-721.3433844404
 10
1163.7992693759
 20
-722.3841363734
 10
1158.1246996892
 20
-723.7427444836
 10
1152.3851821708
 20
-725.4167932152
 10
1146.5909214734
 20
-727.4033061707
 10
1140.752219581
 20
-729.6987514025
 10
1134.8794574925
 20
-732.2990476928
 10
1128.9830767647
 20
-735.1995718098
 10
1123.0735609473
 20
-738.3951667272
 10
1117.1614169437
 20
-741.8801507941
 10
1111.2571563302
 20
-745.6483278359
 10
1105.3712766668
 20
-749.6929981713
 10
1099.5142428327
 20
-754.0069705241
 10
1093.6964684202
 20
-758.5825748089
 10
1087.9282972201
 20
-763.4116757682
 10
1082.2199848301
 20
-768.4856874368
 10
1076.5816804215
 20
-773.7955884071
 10
1071.0234086937
 20
-779.3319378689
 10
1065.5550520509
 20
-785.0848923949
 10
1060.1863330318
 20
-791.0442234419
 10
1054.9267970228
 20
-797.1993355368
 10
1049.785795287
 20
-803.5392851149
 10
1044.772468338
 20
-810.0527999772
 10
1039.895729688
 20
-816.7282993321
 10
1035.1642500004
 20
-823.5539143851
 10
1030.5864416734
 20
-830.517509442
 10
1026.1704438833
 20
-837.6067034847
 10
1021.9241081128
 20
-844.808892185
 10
1017.8549841921
 20
-852.1112703141
 10
1013.9703068749
 20
-859.5008545104
 10
1010.2769829758
 20
-866.9645063627
 10
1006.7815790899
 20
-874.4889557704
 10
1003.4903099178
 20
-882.0608245371
 10
1000.4090272158
 20
-889.6666501563
 10
997.5432093923
 20
-897.2929097478
 10
994.8979517668
 20
-904.9260441003
 10
992.4779575106
 20
-912.5524817794
 10
990.2875292854
 20
-920.1586632573
 10
988.3305615926
 20
-927.7310650208
 10
986.6105338493
 20
-935.2562236161
 10
985.1305042021
 20
-942.7207595856
 10
983.8931040897
 20
-950.1114012569
 10
982.9005335643
 20
-957.4150083388
 10
982.1545573801
 20
-964.6185952843
 10
981.6565018555
 20
-971.7093543789
 10
981.4072525151
 20
-978.6746785116
 10
981.4072525151
 20
-985.5021835903
 10
981.6565018555
 20
-992.17973056
 10
982.1545573801
 20
-998.695446986
 10
982.9005335643
 20
-1005.0377481623
 10
983.8931040897
 20
-1011.1953577088
 10
985.1305042021
 20
-1017.1573276204
 10
986.6105338493
 20
-1022.9130577322
 10
988.3305615926
 20
-1028.4523145661
 10
990.2875292854
 20
-1033.7652495257
 10
992.4779575106
 20
-1038.8424164063
 10
994.8979517668
 20
-1043.6747881907
 10
997.5432093923
 20
-1048.2537730981
 10
1000.4090272158
 20
-1052.5712298604
 10
1003.4903099178
 20
-1056.6194821971
 10
1006.7815790899
 20
-1060.3913324633
 10
1010.2769829758
 20
-1063.8800744468
 10
1013.9703068749
 20
-1067.0795052917
 10
1017.8549841921
 20
-1069.9839365267
 10
1021.9241081128
 20
-1072.5882041791
 10
1026.1704438833
 20
-1074.887677956
 10
1030.5864416734
 20
-1076.878269477
 10
1035.1642500004
 20
-1078.556439543
 10
1039.895729688
 20
-1079.9192044288
 10
1044.772468338
 20
-1080.9641411882
 10
1049.785795287
 20
-1081.6893919618
 10
1054.9267970228
 20
-1082.0936672802
 10
1060.1863330318
 20
-1082.1762483566
 10
1065.5550520509
 20
-1081.9369883649
 10
1071.0234086937
 20
-1081.3763127005
 10
1076.5816804215
 20
-1080.4952182245
 10
1082.2199848301
 20
-1079.2952714905
 10
1087.9282972201
 20
-1077.7786059602
 10
1093.6964684202
 20
-1075.9479182094
 10
1099.5142428327
 20
-1073.8064631343
 10
1105.3712766668
 20
-1071.3580481636
 10
1111.2571563302
 20
-1068.60702649
 10
1117.1614169437
 20
-1065.5582893296
 10
1123.0735609473
 20
-1062.2172572258
 10
1128.9830767647
 20
-1058.5898704117
 10
1134.8794574925
 20
-1054.6825782487
 10
1140.752219581
 20
-1050.5023277597
 10
1146.5909214734
 20
-1046.0565512775
 10
1152.3851821708
 20
-1041.3531532305
 10
1158.1246996892
 20
-1036.4004960888
 10
1163.7992693759
 20
-1031.2073854959
 10
1169.398802053
 20
-1025.7830546131
 10
1174.9133419559
 20
-1020.1371477027
 10
1180.3330844337
 20
-1014.2797029811
 10
1185.6483933823
 20
-1008.2211347714
 10
1190.8498183761
 20
-1001.9722149866
 10
1195.9281114714
 20
-995.5440539781
 10
1200.8742436485
 20
-988.9480807816
 10
1205.6794208647
 20
-982.1960227968
 10
1210.3350996903
 20
-975.2998849363
 10
1214.8330024984
 20
-968.2719282817
 10
1219.1651321818
 20
-961.1246482832
 10
1223.323786372
 20
-953.8707525441
 10
1227.3015711338
 20
-946.5231382261
 10
1231.0914141108
 20
-939.0948691194
 10
1234.6865771007
 20
-931.5991524154
 10
1238.0806680348
 20
-924.0493152248
 10
1241.2676523433
 20
-916.4587808827
 10
1244.2418636843
 20
-908.8410450821
 10
1246.9980140188
 20
-901.2096518793
 10
1249.5312030119
 20
-893.5781696129
 10
1251.8369267461
 20
-885.9601667798
 10
1253.9110857287
 20
-878.3691879112
 10
1255.7499921808
 20
-870.8187294903
 10
1257.3503765937
 20
-863.3222159568
 10
1258.7093935424
 20
-855.8929758382
 10
1259.8246267444
 20
-848.5442180522
 10
1260.6940933557
 20
-841.289008422
 10
1261.3162474963
 20
-834.1402464456
 10
1261.6899829991
 20
-827.1106423609
 10
1261.8146353758
 20
-820.2126945474
  0
LWPOLYLINE
  5
9D
330
1F
100
AcDbEntity
  8
0
  6
Continuous
 62
     7
370
    25
100
AcDbPolyline
 90
      160
 70
   128
 43
0.0
 10
1280.6943864335
 20
-809.3136462545
 10
1280.5701793122
 20
-802.1271296071
 10
1280.1977518831
 20
-795.095240342
 10
1279.5776856473
 20
-788.2289579196
 10
1278.7109487646
 20
-781.5390032249
 10
1277.598894542
 20
-775.035821828
 10
1276.2432593199
 20
-768.7295676746
 10
1274.6461597618
 20
-762.630087232
 10
1272.8100895492
 20
-756.7469041149
 10
1270.7379154877
 20
-751.0892042153
 10
1268.4328730312
 20
-745.66582136
 10
1265.8985612297
 20
-740.4852235176
 10
1263.1389371104
 20
-735.5554995766
 10
1260.1583094987
 20
-730.8843467158
 10
1256.9613322909
 20
-726.4790583857
 10
1253.5529971872
 20
-722.3465129213
 10
1249.9386258984
 20
-718.4931628018
 10
1246.1238618363
 20
-714.9250245758
 10
1242.1146613019
 20
-711.6476694677
 10
1237.9172841862
 20
-708.6662146784
 10
1233.5382841951
 20
-705.9853153957
 10
1228.9844986173
 20
-703.6091575255
 10
1224.2630376485
 20
-701.5414511563
 10
1219.3812732895
 20
-699.7854247662
 10
1214.3468278357
 20
-698.3438201819
 10
1209.1675619763
 20
-697.2188882978
 10
1203.85156252
 20
-696.4123855615
 10
1198.4071297688
 20
-695.9255712314
 10
1192.8427645584
 20
-695.7592054102
 10
1187.1671549843
 20
-695.9135478583
 10
1181.3891628372
 20
-696.3883575884
 10
1175.517809766
 20
-697.1828932415
 10
1169.5622631915
 20
-698.2959142443
 10
1163.5318219928
 20
-699.7256827469
 10
1157.4359019878
 20
-701.4699663353
 10
1151.2840212321
 20
-703.5260415178
 10
1145.0857851571
 20
-705.8906979772
 10
1138.8508715728
 20
-708.5602435829
 10
1132.5890155566
 20
-711.5305101565
 10
1126.3099942533
 20
-714.7968599792
 10
1120.0236116093
 20
-718.3541930337
 10
1113.7396830649
 20
-722.1969549665
 10
1107.4680202285
 20
-726.3191457612
 10
1101.2184155572
 20
-730.714329106
 10
1095.0006270668
 20
-735.375642444
 10
1088.824363096
 20
-740.2958076877
 10
1082.6992671476
 20
-745.4671425832
 10
1076.6349028321
 20
-750.8815727048
 10
1070.6407389344
 20
-756.5306440627
 10
1064.7261346298
 20
-762.4055363025
 10
1058.9003248709
 20
-768.4970764775
 10
1053.172405968
 20
-774.7957533706
 10
1047.5513213866
 20
-781.2917323457
 10
1042.045847783
 20
-787.9748707027
 10
1036.6645813007
 20
-794.8347335143
 10
1031.4159241484
 20
-801.8606099192
 10
1026.3080714813
 20
-809.0415298453
 10
1021.348998605
 20
-816.3662811387
 10
1016.5464485231
 20
-823.8234270695
 10
1011.9079198475
 20
-831.4013241898
 10
1007.44065509
 20
-839.0881405127
 10
1003.1516293543
 20
-846.8718739869
 10
999.0475394449
 20
-854.7403712368
 10
995.1347934111
 20
-862.6813465377
 10
991.4195005412
 20
-870.6824009995
 10
987.9074618242
 20
-878.7310419255
 10
984.6041608914
 20
-886.8147023181
 10
981.5147554553
 20
-894.9207605014
 10
978.6440692557
 20
-903.0365598277
 10
975.9965845282
 20
-911.1494284397
 10
973.5764350061
 20
-919.2466990562
 10
971.3873994655
 20
-927.3157287504
 10
969.4328958255
 20
-935.3439186901
 10
967.7159758116
 20
-943.3187338098
 10
966.2393201906
 20
-951.2277223825
 10
965.005234585
 20
-959.0585354612
 10
964.0156458728
 20
-966.7989461609
 10
963.2720991794
 20
-974.4368687491
 10
962.7757554648
 20
-981.9603775165
 10
962.5273897107
 20
-989.3577253971
 10
962.5273897107
 20
-996.6173623104
 10
962.7757554648
 20
-1003.7279531951
 10
963.2720991794
 20
-1010.6783957076
 10
964.0156458728
 20
-1017.457837557
 10
965.005234585
 20
-1024.0556934496
 10
966.2393201906
 20
-1030.4616616167
 10
967.7159758116
 20
-1036.6657398993
 10
969.4328958255
 20
-1042.6582413658
 10
971.3873994655
 20
-1048.4298094364
 10
973.5764350061
 20
-1053.9714324927
 10
975.9965845282
 20
-1059.2744579481
 10
978.6440692557
 20
-1064.330605758
 10
981.5147554553
 20
-1069.1319813476
 10
984.6041608914
 20
-1073.6710879391
 10
987.9074618242
 20
-1077.9408382562
 10
991.4195005412
 20
-1081.9345655906
 10
995.1347934111
 20
-1085.6460342113
 10
999.0475394449
 20
-1089.0694491006
 10
1003.1516293543
 20
-1092.1994650024
 10
1007.44065509
 20
-1095.0311947686
 10
1011.9079198475
 20
-1097.5602169892
 10
1016.5464485231
 20
-1099.7825828963
 10
1021.348998605
 20
-1101.6948225293
 10
1026.3080714813
 20
-1103.2939501529
 10
1031.4159241484
 20
-1104.5774689194
 10
1036.6645813007
 20
-1105.5433747664
 10
1042.045847783
 20
-1106.1901595466
 10
1047.5513213866
 20
-1106.5168133824
 10
1053.172405968
 20
-1106.5228262426
 10
1058.9003248709
 20
-1106.2081887389
 10
1064.7261346298
 20
-1105.5733921402
 10
1070.6407389344
 20
-1104.6194276063
 10
1076.6349028321
 20
-1103.3477846394
 10
1082.6992671476
 20
-1101.7604487591
 10
1088.824363096
 20
-1099.859898402
 10
1095.0006270668
 20
-1097.6491010517
 10
1101.2184155572
 20
-1095.131508606
 10
1107.4680202285
 20
-1092.3110519866
 10
1113.7396830649
 20
-1089.1921350017
 10
1120.0236116093
 20
-1085.7796274699
 10
1126.3099942533
 20
-1082.0788576167
 10
1132.5890155566
 20
-1078.0956037548
 10
1138.8508715728
 20
-1073.8360852623
 10
1145.0857851571
 20
-1069.3069528718
 10
1151.2840212321
 20
-1064.5152782858
 10
1157.4359019878
 20
-1059.4685431353
 10
1163.5318219928
 20
-1054.1746272983
 10
1169.5622631915
 20
-1048.6417965958
 10
1175.517809766
 20
-1042.8786898863
 10
1181.3891628372
 20
-1036.8943055767
 10
1187.1671549843
 20
-1030.6979875728
 10
1192.8427645584
 20
-1024.2994106895
 10
1198.4071297688
 20
-1017.7085655451
 10
1203.85156252
 20
-1010.935742962
 10
1209.1675619763
 20
-1003.9915178985
 10
1214.3468278357
 20
-996.8867329379
 10
1219.3812732895
 20
-989.6324813584
 10
1224.2630376485
 20
-982.2400898127
 10
1228.9844986173
 20
-974.7211006428
 10
1233.5382841951
 20
-967.0872538576
 10
1237.9172841862
 20
-959.3504688027
 10
1242.1146613019
 20
-951.5228255496
 10
1246.1238618363
 20
-943.6165460339
 10
1249.9386258984
 20
-935.6439749728
 10
1253.5529971872
 20
-927.6175605893
 10
1256.9613322909
 20
-919.5498351769
 10
1260.1583094987
 20
-911.453395531
 10
1263.1389371104
 20
-903.3408832811
 10
1265.8985612297
 20
-895.224965152
 10
1268.4328730312
 20
-887.1183131865
 10
1270.7379154877
 20
-879.0335849592
 10
1272.8100895492
 20
-870.9834038136
 10
1274.6461597618
 20
-862.980339152
 10
1276.2432593199
 20
-855.0368868097
 10
1277.598894542
 20
-847.1654495448
 10
1278.7109487646
 20
-839.378317672
 10
1279.5776856473
 20
-831.6876498734
 10
1280.1977518831
 20
-824.1054542138
 10
1280.5701793122
 20
-816.6435693917
 10
1280.6943864335
 20
-809.3136462545
  0
LWPOLYLINE
  5
9E
330
1F
100
AcDbEntity
  8
0
  6
Continuous
 62
     7
370
    25
100
AcDbPolyline
 90
       21
 70
   128
 43
0.0
 10
1966.5879641844
 20
-1205.2715804886
 10
1966.4637570631
 20
-1198.0850638411
 10
1966.091329634
 20
-1191.053174576
 10
1965.4712633982
 20
-1184.1868921536
 10
1964.6045265156
 20
-1177.4969374589
 10
1963.4924722929
 20
-1170.993756062
 10
1962.1368370708
 20
-1164.6875019086
 10
1960.5397375128
 20
-1158.588021466
 10
1958.7036673002
 20
-1152.7048383489
 10
1956.6314932387
 20
-1147.0471384493
 10
1954.3264507821
 20
-1141.623755594
 10
1951.7921389807
 20
-1136.4431577516
 10
1949.0325148614
 20
-1131.5134338106
 10
1946.0518872497
 20
-1126.8422809498
 10
1942.8549100418
 20
-1122.4369926197
 10
1939.4465749382
 20
-1118.3044471553
 10
1935.8322036494
 20
-1114.4510970358
 10
1932.0174395872
 20
-1110.8829588098
 10
1928.0082390529
 20
-1107.6056037017
 10
1923.8108619371
 20
-1104.6241489124
 10
1919.979795839
 20
-1102.256499033
  0
LWPOLYLINE
  5
9F
330
1F
100
AcDbEntity
  8
0
  6
Continuous
 62
     7
370
    25
100
AcDbPolyline
 90
       61
 70
   128
 43
0.0
 10
1694.9980809959
 20
-1491.9784871043
 10
1697.8014975984
 20
-1493.5181512232
 10
1702.4400262741
 20
-1495.7405171303
 10
1707.242576356
 20
-1497.6527567633
 10
1712.2016492323
 20
-1499.2518843869
 10
1717.3095018994
 20
-1500.5354031534
 10
1722.5581590516
 20
-1501.5013090004
 10
1727.939425534
 20
-1502.1480937806
 10
1733.4448991376
 20
-1502.4747476164
 10
1739.065983719
 20
-1502.4807604766
 10
1744.7939026218
 20
-1502.1661229729
 10
1750.6197123808
 20
-1501.5313263743
 10
1756.5343166853
 20
-1500.5773618403
 10
1762.5284805831
 20
-1499.3057188734
 10
1768.5928448986
 20
-1497.7183829931
 10
1774.7179408469
 20
-1495.817832636
 10
1780.8942048178
 20
-1493.6070352857
 10
1787.1119933082
 20
-1491.08944284
 10
1793.3615979795
 20
-1488.2689862206
 10
1799.6332608158
 20
-1485.1500692357
 10
1805.9171893603
 20
-1481.7375617039
 10
1812.2035720042
 20
-1478.0367918507
 10
1818.4825933076
 20
-1474.0535379888
 10
1824.7444493238
 20
-1469.7940194963
 10
1830.9793629081
 20
-1465.2648871058
 10
1837.177598983
 20
-1460.4732125198
 10
1843.3294797387
 20
-1455.4264773693
 10
1849.4253997437
 20
-1450.1325615323
 10
1855.4558409425
 20
-1444.5997308298
 10
1861.411387517
 20
-1438.8366241203
 10
1867.2827405882
 20
-1432.8522398107
 10
1873.0607327352
 20
-1426.6559218068
 10
1878.7363423093
 20
-1420.2573449235
 10
1884.3007075198
 20
-1413.6664997791
 10
1889.7451402709
 20
-1406.893677196
 10
1895.0611397273
 20
-1399.9494521325
 10
1900.2404055867
 20
-1392.8446671719
 10
1905.2748510404
 20
-1385.5904155924
 10
1910.1566153994
 20
-1378.1980240467
 10
1914.8780763683
 20
-1370.6790348768
 10
1919.431861946
 20
-1363.0451880916
 10
1923.8108619371
 20
-1355.3084030367
 10
1928.0082390529
 20
-1347.4807597836
 10
1932.0174395872
 20
-1339.574480268
 10
1935.8322036494
 20
-1331.6019092068
 10
1939.4465749382
 20
-1323.5754948233
 10
1942.8549100418
 20
-1315.5077694109
 10
1946.0518872497
 20
-1307.4113297651
 10
1949.0325148614
 20
-1299.2988175151
 10
1951.7921389807
 20
-1291.182899386
 10
1954.3264507821
 20
-1283.0762474205
 10
1956.6314932387
 20
-1274.9915191932
 10
1958.7036673002
 20
-1266.9413380476
 10
1960.5397375128
 20
-1258.938273386
 10
1962.1368370708
 20
-1250.9948210438
 10
1963.4924722929
 20
-1243.1233837788
 10
1964.6045265156
 20
-1235.336251906
 10
1965.4712633982
 20
-1227.6455841074
 10
1966.091329634
 20
-1220.0633884478
 10
1966.4637570631
 20
-1212.6015036258
 10
1966.5879641844
 20
-1205.2715804886
  0
LINE
  5
A0
330
1F
100
AcDbEntity
  8
0
  6
Continuous
 62
     7
370
    25
100
AcDbLine
 10
-1258.6828906325
 20
331.4482870644
 30
0.0
 11
-1743.6828906325
 21
331.4482870644
 31
0.0
  0
LINE
  5
A1
330
1F
100
AcDbEntity
  8
0
  6
Continuous
 62
     7
370
    25
100
AcDbLine
 10
-773.6828906325
 20
331.4482870644
 30
0.0
 11
-1258.6828906325
 21
331.4482870644
 31
0.0
  0
LINE
  5
A2
330
1F
100
AcDbEntity
  8
0
  6
Continuous
 62
     7
370
    25
100
AcDbLine
 10
-1258.6828906325
 20
-118.5517129356
 30
0.0
 11
-773.6828906325
 21
-118.5517129356
 31
0.0
  0
LINE
  5
A3
330
1F
100
AcDbEntity
  8
0
  6
Continuous
 62
     7
370
    25
100
AcDbLine
 10
-1743.6828906325
 20
-118.5517129356
 30
0.0
 11
-1258.6828906325
 21
-118.5517129356
 31
0.0
  0
CIRCLE
  5
A4
330
1F
100
AcDbEntity
  8
0
  6
Continuous
 62
     7
370
    25
100
AcDbCircle
 10
-1258.6828906325
 20
106.4482870644
 30
0.0
 40
198.3
  0
CIRCLE
  5
A5
330
1F
100
AcDbEntity
  8
0
  6
Continuous
 62
     7
370
    25
100
AcDbCircle
 10
-1258.6828906325
 20
106.4482870644
 30
0.0
 40
224.9999999999998
  0
LINE
  5
A6
330
1F
100
AcDbEntity
  8
0
  6
Continuous
 62
     7
370
    25
100
AcDbLine
 10
-1743.6828906325
 20
106.4482870644
 30
0.0
 11
-1743.6828906325
 21
331.4482870644
 31
0.0
  0
LINE
  5
A7
330
1F
100
AcDbEntity
  8
0
  6
Continuous
 62
     7
370
    25
100
AcDbLine
 10
-1743.6828906325
 20
-118.5517129356
 30
0.0
 11
-1743.6828906325
 21
106.4482870644
 31
0.0
  0
LINE
  5
A8
330
1F
100
AcDbEntity
  8
0
  6
Continuous
 62
     7
370
    25
100
AcDbLine
 10
-773.6828906325
 20
106.4482870644
 30
0.0
 11
-773.6828906325
 21
331.4482870644
 31
0.0
  0
LINE
  5
A9
330
1F
100
AcDbEntity
  8
0
  6
Continuous
 62
     7
370
    25
100
AcDbLine
 10
-773.6828906325
 20
-118.5517129356
 30
0.0
 11
-773.6828906325
 21
106.4482870644
 31
0.0
  0
INSERT
  5
B5
330
1F
100
AcDbEntity
  8
FORMAT
100
AcDbBlockReference
  2
SW_CENTERMARKSYMBOL_0
 10
-1258.6828906325
 20
106.4482870644
 30
0.0
  0
LINE
  5
B6
330
1F
100
AcDbEntity
  8
0
  6
Continuous
 62
     7
370
    25
100
AcDbLine
 10
-232.3585964356
 20
-701.9748297173
 30
0.0
 11
-232.3585964356
 21
-1671.9748297173
 31
0.0
  0
LINE
  5
B7
330
1F
100
AcDbEntity
  8
0
  6
Continuous
 62
     7
370
    25
100
AcDbLine
 10
217.6414035644
 20
-961.9748297173
 30
0.0
 11
217.6414035644
 21
-701.9748297173
 31
0.0
  0
LINE
  5
B8
330
1F
100
AcDbEntity
  8
0
  6
Continuous
 62
     7
370
    25
100
AcDbLine
 10
217.6414035644
 20
-1671.9748297173
 30
0.0
 11
217.6414035644
 21
-1411.9748297173
 31
0.0
  0
LINE
  5
B9
330
1F
100
AcDbEntity
  8
0
  6
Continuous
 62
     7
370
    25
100
AcDbLine
 10
217.6414035644
 20
-1411.9748297173
 30
0.0
 11
477.6414035644
 21
-1411.9748297173
 31
0.0
  0
LINE
  5
BA
330
1F
100
AcDbEntity
  8
0
  6
Continuous
 62
     7
370
    25
100
AcDbLine
 10
477.6414035644
 20
-961.9748297173
 30
0.0
 11
217.6414035644
 21
-961.9748297173
 31
0.0
  0
LINE
  5
BB
330
1F
100
AcDbEntity
  8
0
  6
Continuous
 62
     7
370
    25
100
AcDbLine
 10
-7.3585964356
 20
-1186.9748297173
 30
0.0
 11
217.6414035644
 21
-1411.9748297173
 31
0.0
  0
LINE
  5
BC
330
1F
100
AcDbEntity
  8
0
  6
Continuous
 62
     7
370
    25
100
AcDbLine
 10
217.6414035644
 20
-961.9748297173
 30
0.0
 11
-7.3585964356
 21
-1186.9748297173
 31
0.0
  0
LINE
  5
BD
330
1F
100
AcDbEntity
  8
0
  6
Continuous
 62
     7
370
    25
100
AcDbLine
 10
217.6414035644
 20
-1671.9748297173
 30
0.0
 11
-232.3585964356
 21
-1671.9748297173
 31
0.0
  0
LINE
  5
BE
330
1F
100
AcDbEntity
  8
0
  6
Continuous
 62
     7
370
    25
100
AcDbLine
 10
217.6414035644
 20
-701.9748297173
 30
0.0
 11
-232.3585964356
 21
-701.9748297173
 31
0.0
  0
LINE
  5
BF
330
1F
100
AcDbEntity
  8
0
  6
Continuous
 62
     7
370
    25
100
AcDbLine
 10
477.6414035644
 20
-961.9748297173
 30
0.0
 11
477.6414035644
 21
-1411.9748297173
 31
0.0
  0
LINE
  5
C0
330
1F
100
AcDbEntity
  8
0
  6
Continuous
 62
     7
370
    25
100
AcDbLine
 10
75.6519749969
 20
-118.5517129356
 30
0.0
 11
560.6519749969
 21
-118.5517129356
 31
0.0
  0
LINE
  5
C1
330
1F
100
AcDbEntity
  8
0
  6
Continuous
 62
     7
370
    25
100
AcDbLine
 10
560.6519749969
 20
331.4482870644
 30
0.0
 11
75.6519749969
 21
331.4482870644
 31
0.0
  0
CIRCLE
  5
C2
330
1F
100
AcDbEntity
  8
0
  6
Continuous
 62
     7
370
    25
100
AcDbCircle
 10
75.6519749969
 20
106.4482870644
 30
0.0
 40
198.3
  0
CIRCLE
  5
C3
330
1F
100
AcDbEntity
  8
0
  6
Continuous
 62
     7
370
    25
100
AcDbCircle
 10
75.6519749969
 20
106.4482870644
 30
0.0
 40
224.9999999999999
  0
LINE
  5
C4
330
1F
100
AcDbEntity
  8
0
  6
Continuous
 62
     7
370
    25
100
AcDbLine
 10
560.6519749969
 20
331.4482870644
 30
0.0
 11
560.6519749969
 21
-118.5517129356
 31
0.0
  0
INSERT
  5
D0
330
1F
100
AcDbEntity
  8
FORMAT
 62
     7
100
AcDbBlockReference
  2
SW_CENTERMARKSYMBOL_1
 10
75.6519749969
 20
106.4482870644
 30
0.0
  0
ENDSEC
  0
SECTION
  2
OBJECTS
  0
DICTIONARY
  5
C
330
0
100
AcDbDictionary
281
     1
  3
ACAD_GROUP
350
D
  3
ACAD_LAYOUT
350
1A
  3
ACAD_MLINESTYLE
350
17
  3
ACAD_PLOTSETTINGS
350
19
  3
ACAD_PLOTSTYLENAME
350
E
  3
ACAD_SCALELIST
350
47
  3
DWGPROPS
350
D1
  0
DICTIONARY
  5
D
102
{ACAD_REACTORS
330
C
102
}
330
C
100
AcDbDictionary
281
     1
  0
DICTIONARY
  5
1A
102
{ACAD_REACTORS
330
C
102
}
330
C
100
AcDbDictionary
281
     1
  3
Layout1
350
1E
  3
Layout2
350
26
  3
Model
350
22
  0
DICTIONARY
  5
17
102
{ACAD_REACTORS
330
C
102
}
330
C
100
AcDbDictionary
281
     1
  3
Standard
350
18
  0
DICTIONARY
  5
19
102
{ACAD_REACTORS
330
C
102
}
330
C
100
AcDbDictionary
281
     1
  0
ACDBDICTIONARYWDFLT
  5
E
102
{ACAD_REACTORS
330
C
102
}
330
C
100
AcDbDictionary
281
     1
  3
Normal
350
F
100
AcDbDictionaryWithDefault
340
F
  0
DICTIONARY
  5
47
102
{ACAD_REACTORS
330
C
102
}
330
C
100
AcDbDictionary
281
     1
  3
A0
350
48
  3
A1
350
49
  3
A2
350
4A
  3
A3
350
4B
  3
A4
350
4C
  3
A5
350
4D
  3
A6
350
4E
  3
A7
350
4F
  3
A8
350
50
  3
A9
350
51
  3
B0
350
52
  3
B1
350
53
  3
B2
350
54
  3
B3
350
55
  3
B4
350
56
  3
B5
350
57
  3
B6
350
58
  3
B7
350
59
  3
B8
350
5A
  3
B9
350
5B
  3
C0
350
5C
  3
C1
350
5D
  3
C2
350
5E
  3
C3
350
5F
  3
C4
350
60
  3
C5
350
61
  3
C6
350
62
  3
C7
350
63
  3
C8
350
64
  3
C9
350
65
  3
D0
350
66
  3
D1
350
67
  3
D2
350
68
  0
XRECORD
  5
D1
102
{ACAD_REACTORS
330
C
102
}
330
C
100
AcDbXrecord
280
     1
  1
DWGPROPS COOKIE
  2

  3

  4

  6

  7

  8
b.kav
  9

300
=
301
=
302
=
303
=
304
=
305
=
306
=
307
=
308
=
309
=
 40
0.0
 41
2459935.5756214
 42
2459935.575621586
  1

 90
        0
  0
LAYOUT
  5
1E
102
{ACAD_REACTORS
330
1A
102
}
330
1A
100
AcDbPlotSettings
  1

  2
none_device
  4

  6

 40
0.0
 41
0.0
 42
0.0
 43
0.0
 44
0.0
 45
0.0
 46
0.0
 47
0.0
 48
0.0
 49
0.0
140
0.0
141
0.0
142
1.0
143
1.0
 70
   688
 72
     1
 73
     0
 74
     5
  7

 75
    16
147
1.0
148
0.0
149
0.0
100
AcDbLayout
  1
Layout1
 70
     1
 71
     1
 10
0.0
 20
0.0
 11
420.0
 21
297.0
 12
0.0
 22
0.0
 32
0.0
 14
1.0000000000E+20
 24
1.0000000000E+20
 34
1.0000000000E+20
 15
-1.0000000000E+20
 25
-1.0000000000E+20
 35
-1.0000000000E+20
146
0.0
 13
0.0
 23
0.0
 33
0.0
 16
1.0
 26
0.0
 36
0.0
 17
0.0
 27
1.0
 37
0.0
 76
     0
330
1B
  0
LAYOUT
  5
26
102
{ACAD_REACTORS
330
1A
102
}
330
1A
100
AcDbPlotSettings
  1

  2
none_device
  4

  6

 40
0.0
 41
0.0
 42
0.0
 43
0.0
 44
0.0
 45
0.0
 46
0.0
 47
0.0
 48
0.0
 49
0.0
140
0.0
141
0.0
142
1.0
143
1.0
 70
   688
 72
     1
 73
     0
 74
     5
  7

 75
    16
147
1.0
148
0.0
149
0.0
100
AcDbLayout
  1
Layout2
 70
     1
 71
     2
 10
0.0
 20
0.0
 11
0.0
 21
0.0
 12
0.0
 22
0.0
 32
0.0
 14
0.0
 24
0.0
 34
0.0
 15
0.0
 25
0.0
 35
0.0
146
0.0
 13
0.0
 23
0.0
 33
0.0
 16
1.0
 26
0.0
 36
0.0
 17
0.0
 27
1.0
 37
0.0
 76
     0
330
23
  0
LAYOUT
  5
22
102
{ACAD_REACTORS
330
1A
102
}
330
1A
100
AcDbPlotSettings
  1

  2
none_device
  4
Letter_(8.50_x_11.00_Inches)
  6

 40
6.35
 41
6.35
 42
6.35000508
 43
6.35000508
 44
215.9
 45
279.4
 46
0.0
 47
0.0
 48
0.0
 49
0.0
140
0.0
141
0.0
142
1.0
143
1.0
 70
  1712
 72
     1
 73
     0
 74
     0
  7

 75
     0
147
1.0
148
0.0
149
0.0
100
AcDbLayout
  1
Model
 70
     1
 71
     0
 10
0.0
 20
0.0
 11
279.4
 21
215.9
 12
0.0
 22
0.0
 32
0.0
 14
0.0
 24
0.0
 34
0.0
 15
279.4
 25
215.9
 35
0.0
146
0.0
 13
0.0
 23
0.0
 33
0.0
 16
1.0
 26
0.0
 36
0.0
 17
0.0
 27
1.0
 37
0.0
 76
     0
330
1F
331
29
  0
MLINESTYLE
  5
18
102
{ACAD_REACTORS
330
17
102
}
330
17
100
AcDbMlineStyle
  2
Standard
 70
     0
  3

 62
   256
 51
90.0
 52
90.0
 71
     2
 49
0.5
 62
   256
  6
BYLAYER
 49
-0.5
 62
   256
  6
BYLAYER
  0
ACDBPLACEHOLDER
  5
F
102
{ACAD_REACTORS
330
E
102
}
330
E
  0
SCALE
  5
48
102
{ACAD_REACTORS
330
47
102
}
330
47
100
AcDbScale
 70
     0
300
1:1
140
1.0
141
1.0
290
     1
  0
SCALE
  5
49
102
{ACAD_REACTORS
330
47
102
}
330
47
100
AcDbScale
 70
     0
300
1:2
140
1.0
141
2.0
290
     0
  0
SCALE
  5
4A
102
{ACAD_REACTORS
330
47
102
}
330
47
100
AcDbScale
 70
     0
300
1:4
140
1.0
141
4.0
290
     0
  0
SCALE
  5
4B
102
{ACAD_REACTORS
330
47
102
}
330
47
100
AcDbScale
 70
     0
300
1:5
140
1.0
141
5.0
290
     0
  0
SCALE
  5
4C
102
{ACAD_REACTORS
330
47
102
}
330
47
100
AcDbScale
 70
     0
300
1:8
140
1.0
141
8.0
290
     0
  0
SCALE
  5
4D
102
{ACAD_REACTORS
330
47
102
}
330
47
100
AcDbScale
 70
     0
300
1:10
140
1.0
141
10.0
290
     0
  0
SCALE
  5
4E
102
{ACAD_REACTORS
330
47
102
}
330
47
100
AcDbScale
 70
     0
300
1:16
140
1.0
141
16.0
290
     0
  0
SCALE
  5
4F
102
{ACAD_REACTORS
330
47
102
}
330
47
100
AcDbScale
 70
     0
300
1:20
140
1.0
141
20.0
290
     0
  0
SCALE
  5
50
102
{ACAD_REACTORS
330
47
102
}
330
47
100
AcDbScale
 70
     0
300
1:30
140
1.0
141
30.0
290
     0
  0
SCALE
  5
51
102
{ACAD_REACTORS
330
47
102
}
330
47
100
AcDbScale
 70
     0
300
1:40
140
1.0
141
40.0
290
     0
  0
SCALE
  5
52
102
{ACAD_REACTORS
330
47
102
}
330
47
100
AcDbScale
 70
     0
300
1:50
140
1.0
141
50.0
290
     0
  0
SCALE
  5
53
102
{ACAD_REACTORS
330
47
102
}
330
47
100
AcDbScale
 70
     0
300
1:100
140
1.0
141
100.0
290
     0
  0
SCALE
  5
54
102
{ACAD_REACTORS
330
47
102
}
330
47
100
AcDbScale
 70
     0
300
2:1
140
2.0
141
1.0
290
     0
  0
SCALE
  5
55
102
{ACAD_REACTORS
330
47
102
}
330
47
100
AcDbScale
 70
     0
300
4:1
140
4.0
141
1.0
290
     0
  0
SCALE
  5
56
102
{ACAD_REACTORS
330
47
102
}
330
47
100
AcDbScale
 70
     0
300
8:1
140
8.0
141
1.0
290
     0
  0
SCALE
  5
57
102
{ACAD_REACTORS
330
47
102
}
330
47
100
AcDbScale
 70
     0
300
10:1
140
10.0
141
1.0
290
     0
  0
SCALE
  5
58
102
{ACAD_REACTORS
330
47
102
}
330
47
100
AcDbScale
 70
     0
300
100:1
140
100.0
141
1.0
290
     0
  0
SCALE
  5
59
102
{ACAD_REACTORS
330
47
102
}
330
47
100
AcDbScale
 70
     0
300
1/128" = 1'-0"
140
0.0078125
141
12.0
290
     0
  0
SCALE
  5
5A
102
{ACAD_REACTORS
330
47
102
}
330
47
100
AcDbScale
 70
     0
300
1/64" = 1'-0"
140
0.015625
141
12.0
290
     0
  0
SCALE
  5
5B
102
{ACAD_REACTORS
330
47
102
}
330
47
100
AcDbScale
 70
     0
300
1/32" = 1'-0"
140
0.03125
141
12.0
290
     0
  0
SCALE
  5
5C
102
{ACAD_REACTORS
330
47
102
}
330
47
100
AcDbScale
 70
     0
300
1/16" = 1'-0"
140
0.0625
141
12.0
290
     0
  0
SCALE
  5
5D
102
{ACAD_REACTORS
330
47
102
}
330
47
100
AcDbScale
 70
     0
300
3/32" = 1'-0"
140
0.09375
141
12.0
290
     0
  0
SCALE
  5
5E
102
{ACAD_REACTORS
330
47
102
}
330
47
100
AcDbScale
 70
     0
300
1/8" = 1'-0"
140
0.125
141
12.0
290
     0
  0
SCALE
  5
5F
102
{ACAD_REACTORS
330
47
102
}
330
47
100
AcDbScale
 70
     0
300
3/16" = 1'-0"
140
0.1875
141
12.0
290
     0
  0
SCALE
  5
60
102
{ACAD_REACTORS
330
47
102
}
330
47
100
AcDbScale
 70
     0
300
1/4" = 1'-0"
140
0.25
141
12.0
290
     0
  0
SCALE
  5
61
102
{ACAD_REACTORS
330
47
102
}
330
47
100
AcDbScale
 70
     0
300
3/8" = 1'-0"
140
0.375
141
12.0
290
     0
  0
SCALE
  5
62
102
{ACAD_REACTORS
330
47
102
}
330
47
100
AcDbScale
 70
     0
300
1/2" = 1'-0"
140
0.5
141
12.0
290
     0
  0
SCALE
  5
63
102
{ACAD_REACTORS
330
47
102
}
330
47
100
AcDbScale
 70
     0
300
3/4" = 1'-0"
140
0.75
141
12.0
290
     0
  0
SCALE
  5
64
102
{ACAD_REACTORS
330
47
102
}
330
47
100
AcDbScale
 70
     0
300
1" = 1'-0"
140
1.0
141
12.0
290
     0
  0
SCALE
  5
65
102
{ACAD_REACTORS
330
47
102
}
330
47
100
AcDbScale
 70
     0
300
1-1/2" = 1'-0"
140
1.5
141
12.0
290
     0
  0
SCALE
  5
66
102
{ACAD_REACTORS
330
47
102
}
330
47
100
AcDbScale
 70
     0
300
3" = 1'-0"
140
3.0
141
12.0
290
     0
  0
SCALE
  5
67
102
{ACAD_REACTORS
330
47
102
}
330
47
100
AcDbScale
 70
     0
300
6" = 1'-0"
140
6.0
141
12.0
290
     0
  0
SCALE
  5
68
102
{ACAD_REACTORS
330
47
102
}
330
47
100
AcDbScale
 70
     0
300
1'-0" = 1'-0"
140
12.0
141
12.0
290
     0
  0
ENDSEC
  0
EOF
